ISO-10303-21;
HEADER;
/* Generated by software containing ST-Developer
 * from STEP Tools, Inc. (www.steptools.com) 
 */

FILE_DESCRIPTION(
/* description */ (''),
/* implementation_level */ '2;1');

FILE_NAME(
/* name */ 'MH20',
/* time_stamp */ '2012-11-23T16:08:14+08:00',
/* author */ (''),
/* organization */ (''),
/* preprocessor_version */ 'ST-DEVELOPER v9',
/* originating_system */ 'UGS - NX 4.0',
/* authorisation */ '');

FILE_SCHEMA (('CONFIG_CONTROL_DESIGN'));
ENDSEC;

DATA;
#10=SHAPE_REPRESENTATION_RELATIONSHIP('None',
'relationship between Admi04DFxl9j-None and Admi04DFxl9j-None',#94,#11);
#11=ADVANCED_BREP_SHAPE_REPRESENTATION('Admi04DFxl9j-None',(#95),#251);
#12=CC_DESIGN_APPROVAL(#24,(#82));
#13=CC_DESIGN_APPROVAL(#25,(#84));
#14=CC_DESIGN_APPROVAL(#26,(#31));
#15=APPROVAL_PERSON_ORGANIZATION(#69,#24,#18);
#16=APPROVAL_PERSON_ORGANIZATION(#70,#25,#19);
#17=APPROVAL_PERSON_ORGANIZATION(#71,#26,#20);
#18=APPROVAL_ROLE('approver');
#19=APPROVAL_ROLE('approver');
#20=APPROVAL_ROLE('approver');
#21=APPROVAL_DATE_TIME(#39,#24);
#22=APPROVAL_DATE_TIME(#40,#25);
#23=APPROVAL_DATE_TIME(#41,#26);
#24=APPROVAL(#27,' ');
#25=APPROVAL(#28,' ');
#26=APPROVAL(#29,' ');
#27=APPROVAL_STATUS('not_yet_approved');
#28=APPROVAL_STATUS('not_yet_approved');
#29=APPROVAL_STATUS('not_yet_approved');
#30=CC_DESIGN_SECURITY_CLASSIFICATION(#31,(#84));
#31=SECURITY_CLASSIFICATION(' ',' ',#32);
#32=SECURITY_CLASSIFICATION_LEVEL('confidential');
#33=CC_DESIGN_DATE_AND_TIME_ASSIGNMENT(#37,#35,(#82));
#34=CC_DESIGN_DATE_AND_TIME_ASSIGNMENT(#38,#36,(#31));
#35=DATE_TIME_ROLE('creation_date');
#36=DATE_TIME_ROLE('classification_date');
#37=DATE_AND_TIME(#52,#42);
#38=DATE_AND_TIME(#53,#43);
#39=DATE_AND_TIME(#54,#44);
#40=DATE_AND_TIME(#55,#45);
#41=DATE_AND_TIME(#56,#46);
#42=LOCAL_TIME(0,0,0.,#47);
#43=LOCAL_TIME(0,0,0.,#48);
#44=LOCAL_TIME(0,0,0.,#49);
#45=LOCAL_TIME(0,0,0.,#50);
#46=LOCAL_TIME(0,0,0.,#51);
#47=COORDINATED_UNIVERSAL_TIME_OFFSET(0,0,.BEHIND.);
#48=COORDINATED_UNIVERSAL_TIME_OFFSET(0,0,.BEHIND.);
#49=COORDINATED_UNIVERSAL_TIME_OFFSET(0,0,.BEHIND.);
#50=COORDINATED_UNIVERSAL_TIME_OFFSET(0,0,.BEHIND.);
#51=COORDINATED_UNIVERSAL_TIME_OFFSET(0,0,.BEHIND.);
#52=CALENDAR_DATE(0,1,1);
#53=CALENDAR_DATE(0,1,1);
#54=CALENDAR_DATE(0,1,1);
#55=CALENDAR_DATE(0,1,1);
#56=CALENDAR_DATE(0,1,1);
#57=CC_DESIGN_PERSON_AND_ORGANIZATION_ASSIGNMENT(#65,#61,(#82,#84));
#58=CC_DESIGN_PERSON_AND_ORGANIZATION_ASSIGNMENT(#66,#62,(#86));
#59=CC_DESIGN_PERSON_AND_ORGANIZATION_ASSIGNMENT(#67,#63,(#84));
#60=CC_DESIGN_PERSON_AND_ORGANIZATION_ASSIGNMENT(#68,#64,(#31));
#61=PERSON_AND_ORGANIZATION_ROLE('creator');
#62=PERSON_AND_ORGANIZATION_ROLE('design_owner');
#63=PERSON_AND_ORGANIZATION_ROLE('design_supplier');
#64=PERSON_AND_ORGANIZATION_ROLE('classification_officer');
#65=PERSON_AND_ORGANIZATION(#79,#72);
#66=PERSON_AND_ORGANIZATION(#79,#73);
#67=PERSON_AND_ORGANIZATION(#79,#74);
#68=PERSON_AND_ORGANIZATION(#79,#75);
#69=PERSON_AND_ORGANIZATION(#79,#76);
#70=PERSON_AND_ORGANIZATION(#79,#77);
#71=PERSON_AND_ORGANIZATION(#79,#78);
#72=ORGANIZATION(' ',' ',' ');
#73=ORGANIZATION(' ',' ',' ');
#74=ORGANIZATION(' ',' ',' ');
#75=ORGANIZATION(' ',' ',' ');
#76=ORGANIZATION(' ',' ',' ');
#77=ORGANIZATION(' ',' ',' ');
#78=ORGANIZATION(' ',' ',' ');
#79=PERSON(' ',' ',' ',(' '),$,$);
#80=SHAPE_DEFINITION_REPRESENTATION(#81,#94);
#81=PRODUCT_DEFINITION_SHAPE('','',#82);
#82=PRODUCT_DEFINITION(' ','',#84,#83);
#83=DESIGN_CONTEXT('',#93,'design');
#84=PRODUCT_DEFINITION_FORMATION_WITH_SPECIFIED_SOURCE(' ',' ',#86,.NOT_KNOWN.);
#85=PRODUCT_RELATED_PRODUCT_CATEGORY('detail','',(#86));
#86=PRODUCT('Admi04DFxl9j','Admi04DFxl9j',' ',(#91));
#87=PRODUCT_CATEGORY_RELATIONSHIP(' ',' ',#89,#90);
#88=PRODUCT_CATEGORY_RELATIONSHIP('','',#90,#85);
#89=PRODUCT_CATEGORY('part',' ');
#90=PRODUCT_CATEGORY(' ','');
#91=MECHANICAL_CONTEXT(' ',#93,'mechanical');
#92=APPLICATION_PROTOCOL_DEFINITION('international standard',
'config_control_design',1994,#93);
#93=APPLICATION_CONTEXT(
'configuration controlled 3D designs of mechanical parts and assemblies
');
#94=SHAPE_REPRESENTATION('Admi04DFxl9j-None',(#179),#251);
#95=MANIFOLD_SOLID_BREP('',#96);
#96=CLOSED_SHELL('',(#109,#110,#111,#112,#113,#114,#115,#116));
#97=CYLINDRICAL_SURFACE('',#194,2.5);
#98=VERTEX_LOOP('',#163);
#99=PLANE('',#191);
#100=CONICAL_SURFACE('',#186,3.4999999999992,3.71123354474117);
#101=CONICAL_SURFACE('',#188,2.99999999999984,3.71123354474726);
#102=CONICAL_SURFACE('',#193,2.5,59.9999999999991);
#103=FACE_OUTER_BOUND('',#132,.T.);
#104=FACE_OUTER_BOUND('',#134,.T.);
#105=FACE_OUTER_BOUND('',#135,.T.);
#106=FACE_OUTER_BOUND('',#137,.T.);
#107=FACE_OUTER_BOUND('',#139,.T.);
#108=FACE_OUTER_BOUND('',#140,.T.);
#109=ADVANCED_FACE('',(#120,#121,#122),#117,.T.);
#110=ADVANCED_FACE('',(#103),#118,.T.);
#111=ADVANCED_FACE('',(#123,#104),#100,.T.);
#112=ADVANCED_FACE('',(#105,#124),#101,.T.);
#113=ADVANCED_FACE('',(#106),#119,.T.);
#114=ADVANCED_FACE('',(#125,#107),#99,.T.);
#115=ADVANCED_FACE('',(#126,#108),#102,.F.);
#116=ADVANCED_FACE('',(#127,#128),#97,.F.);
#117=SPHERICAL_SURFACE('',#183,9.00000000000001);
#118=SPHERICAL_SURFACE('',#185,5.);
#119=SPHERICAL_SURFACE('',#189,5.00000000000001);
#120=FACE_BOUND('',#129,.T.);
#121=FACE_BOUND('',#130,.T.);
#122=FACE_BOUND('',#131,.T.);
#123=FACE_BOUND('',#133,.T.);
#124=FACE_BOUND('',#136,.T.);
#125=FACE_BOUND('',#138,.T.);
#126=FACE_BOUND('',#98,.T.);
#127=FACE_BOUND('',#141,.T.);
#128=FACE_BOUND('',#142,.T.);
#129=EDGE_LOOP('',(#143));
#130=EDGE_LOOP('',(#144));
#131=EDGE_LOOP('',(#145));
#132=EDGE_LOOP('',(#146));
#133=EDGE_LOOP('',(#147));
#134=EDGE_LOOP('',(#148));
#135=EDGE_LOOP('',(#149));
#136=EDGE_LOOP('',(#150));
#137=EDGE_LOOP('',(#151));
#138=EDGE_LOOP('',(#152));
#139=EDGE_LOOP('',(#153));
#140=EDGE_LOOP('',(#154));
#141=EDGE_LOOP('',(#155));
#142=EDGE_LOOP('',(#156));
#143=ORIENTED_EDGE('',*,*,#165,.F.);
#144=ORIENTED_EDGE('',*,*,#166,.T.);
#145=ORIENTED_EDGE('',*,*,#167,.T.);
#146=ORIENTED_EDGE('',*,*,#168,.F.);
#147=ORIENTED_EDGE('',*,*,#168,.T.);
#148=ORIENTED_EDGE('',*,*,#166,.F.);
#149=ORIENTED_EDGE('',*,*,#165,.T.);
#150=ORIENTED_EDGE('',*,*,#169,.F.);
#151=ORIENTED_EDGE('',*,*,#169,.T.);
#152=ORIENTED_EDGE('',*,*,#170,.F.);
#153=ORIENTED_EDGE('',*,*,#167,.F.);
#154=ORIENTED_EDGE('',*,*,#171,.T.);
#155=ORIENTED_EDGE('',*,*,#170,.T.);
#156=ORIENTED_EDGE('',*,*,#171,.F.);
#157=VERTEX_POINT('',#229);
#158=VERTEX_POINT('',#231);
#159=VERTEX_POINT('',#233);
#160=VERTEX_POINT('',#236);
#161=VERTEX_POINT('',#240);
#162=VERTEX_POINT('',#244);
#163=VERTEX_POINT('',#246);
#164=VERTEX_POINT('',#248);
#165=EDGE_CURVE('',#157,#157,#172,.T.);
#166=EDGE_CURVE('',#158,#158,#173,.T.);
#167=EDGE_CURVE('',#159,#159,#174,.T.);
#168=EDGE_CURVE('',#160,#160,#175,.T.);
#169=EDGE_CURVE('',#161,#161,#176,.T.);
#170=EDGE_CURVE('',#162,#162,#177,.T.);
#171=EDGE_CURVE('',#164,#164,#178,.T.);
#172=CIRCLE('',#180,3.49999999999994);
#173=CIRCLE('',#181,3.4999999999992);
#174=CIRCLE('',#182,6.70820393249937);
#175=CIRCLE('',#184,2.99999999999991);
#176=CIRCLE('',#187,2.99999999999984);
#177=CIRCLE('',#190,2.5);
#178=CIRCLE('',#192,2.5);
#179=AXIS2_PLACEMENT_3D('',#227,#195,#196);
#180=AXIS2_PLACEMENT_3D('',#228,#197,#198);
#181=AXIS2_PLACEMENT_3D('',#230,#199,#200);
#182=AXIS2_PLACEMENT_3D('',#232,#201,#202);
#183=AXIS2_PLACEMENT_3D('',#234,#203,#204);
#184=AXIS2_PLACEMENT_3D('',#235,#205,#206);
#185=AXIS2_PLACEMENT_3D('',#237,#207,#208);
#186=AXIS2_PLACEMENT_3D('',#238,#209,#210);
#187=AXIS2_PLACEMENT_3D('',#239,#211,#212);
#188=AXIS2_PLACEMENT_3D('',#241,#213,#214);
#189=AXIS2_PLACEMENT_3D('',#242,#215,#216);
#190=AXIS2_PLACEMENT_3D('',#243,#217,#218);
#191=AXIS2_PLACEMENT_3D('',#245,#219,#220);
#192=AXIS2_PLACEMENT_3D('',#247,#221,#222);
#193=AXIS2_PLACEMENT_3D('',#249,#223,#224);
#194=AXIS2_PLACEMENT_3D('',#250,#225,#226);
#195=DIRECTION('',(0.,0.,1.));
#196=DIRECTION('',(1.,0.,0.));
#197=DIRECTION('',(1.,-1.4210854715202E-015,0.));
#198=DIRECTION('',(0.,1.,0.));
#199=DIRECTION('',(1.,-1.4210854715202E-015,0.));
#200=DIRECTION('',(0.,1.,0.));
#201=DIRECTION('',(0.,1.,0.));
#202=DIRECTION('',(0.,0.,-1.));
#203=DIRECTION('',(1.,0.,0.));
#204=DIRECTION('',(0.,1.,0.));
#205=DIRECTION('',(1.,-1.4210854715202E-015,0.));
#206=DIRECTION('',(0.,1.,0.));
#207=DIRECTION('',(1.,0.,0.));
#208=DIRECTION('',(0.,1.,0.));
#209=DIRECTION('',(1.,-1.4210854715202E-015,0.));
#210=DIRECTION('',(-1.21799114211125E-015,1.,0.));
#211=DIRECTION('',(1.,-1.4210854715202E-015,0.));
#212=DIRECTION('',(0.,0.999999999999997,0.));
#213=DIRECTION('',(-1.,1.4210854715202E-015,0.));
#214=DIRECTION('',(-2.04494151497878E-015,-1.,0.));
#215=DIRECTION('',(0.999999999999999,0.,0.));
#216=DIRECTION('',(0.,0.999999999999999,0.));
#217=DIRECTION('',(0.,-1.,0.));
#218=DIRECTION('',(0.,0.,-1.));
#219=DIRECTION('',(0.,-1.,0.));
#220=DIRECTION('',(0.,0.,-1.));
#221=DIRECTION('',(0.,-1.,0.));
#222=DIRECTION('',(0.,0.,-1.));
#223=DIRECTION('',(0.,-1.,0.));
#224=DIRECTION('',(0.,-3.20031854870043E-017,-1.));
#225=DIRECTION('',(0.,-1.,0.));
#226=DIRECTION('',(0.,0.,-1.));
#227=CARTESIAN_POINT('',(0.,0.,0.));
#228=CARTESIAN_POINT('',(199.42092542558,133.051568767222,0.));
#229=CARTESIAN_POINT('',(199.42092542558,136.551568767222,0.));
#230=CARTESIAN_POINT('',(182.837801473803,133.051568767222,0.));
#231=CARTESIAN_POINT('',(182.837801473803,136.551568767222,0.));
#232=CARTESIAN_POINT('',(191.129363449692,127.051568767222,0.));
#233=CARTESIAN_POINT('',(191.129363449692,127.051568767222,-6.70820393249937));
#234=CARTESIAN_POINT('',(191.129363449692,133.051568767222,0.));
#235=CARTESIAN_POINT('',(175.129363449692,133.051568767222,0.));
#236=CARTESIAN_POINT('',(175.129363449692,136.051568767222,0.));
#237=CARTESIAN_POINT('',(171.129363449692,133.051568767222,0.));
#238=CARTESIAN_POINT('',(182.837801473803,133.051568767222,0.));
#239=CARTESIAN_POINT('',(207.129363449692,133.051568767222,0.));
#240=CARTESIAN_POINT('',(207.129363449692,136.051568767222,0.));
#241=CARTESIAN_POINT('',(207.129363449692,133.051568767222,0.));
#242=CARTESIAN_POINT('',(211.129363449692,133.051568767222,0.));
#243=CARTESIAN_POINT('',(191.129363449692,127.051568767222,0.));
#244=CARTESIAN_POINT('',(191.129363449692,127.051568767222,-2.5));
#245=CARTESIAN_POINT('',(193.629363449692,127.051568767222,-110.));
#246=CARTESIAN_POINT('',(191.129363449692,138.494944440196,0.));
#247=CARTESIAN_POINT('',(191.129363449692,137.051568767222,0.));
#248=CARTESIAN_POINT('',(191.129363449692,137.051568767222,-2.5));
#249=CARTESIAN_POINT('',(191.129363449692,137.051568767222,0.));
#250=CARTESIAN_POINT('',(191.129363449692,122.051568767222,0.));
#251=(
GEOMETRIC_REPRESENTATION_CONTEXT(3)
GLOBAL_UNCERTAINTY_ASSIGNED_CONTEXT((#252))
GLOBAL_UNIT_ASSIGNED_CONTEXT((#258,#254,#253))
REPRESENTATION_CONTEXT('MH20','TOP_LEVEL_ASSEMBLY_PART')
);
#252=UNCERTAINTY_MEASURE_WITH_UNIT(LENGTH_MEASURE(2.E-005),#258,
'DISTANCE_ACCURACY_VALUE','Maximum Tolerance applied to model');
#253=(
NAMED_UNIT(*)
SI_UNIT($,.STERADIAN.)
SOLID_ANGLE_UNIT()
);
#254=(
CONVERSION_BASED_UNIT('DEGREE',#256)
NAMED_UNIT(#255)
PLANE_ANGLE_UNIT()
);
#255=DIMENSIONAL_EXPONENTS(0.,0.,0.,0.,0.,0.,0.);
#256=PLANE_ANGLE_MEASURE_WITH_UNIT(PLANE_ANGLE_MEASURE(0.0174532925),#257);
#257=(
NAMED_UNIT(*)
PLANE_ANGLE_UNIT()
SI_UNIT($,.RADIAN.)
);
#258=(
LENGTH_UNIT()
NAMED_UNIT(*)
SI_UNIT(.MILLI.,.METRE.)
);
ENDSEC;
END-ISO-10303-21;
